  0
SECTION
  2
HEADER
  9
$ACADVER
  1
AC1015
  9
$ACADMAINTVER
 70
    20
  9
$DWGCODEPAGE
  3
ANSI_1252
  9
$INSBASE
 10
0.0
 20
0.0
 30
0.0
  9
$EXTMIN
 10
18.30860569660703
 20
962.3875039210814
 30
0.0
  9
$EXTMAX
 10
20.58818355780612
 20
962.8325039210812
 30
0.0
  9
$LIMMIN
 10
0.0
 20
0.0
  9
$LIMMAX
 10
420.0
 20
297.0
  9
$ORTHOMODE
 70
     1
  9
$REGENMODE
 70
     1
  9
$FILLMODE
 70
     1
  9
$QTEXTMODE
 70
     0
  9
$MIRRTEXT
 70
     1
  9
$LTSCALE
 40
1.0
  9
$ATTMODE
 70
     1
  9
$TEXTSIZE
 40
2.5
  9
$TRACEWID
 40
1.0
  9
$TEXTSTYLE
  7
SANINDUSA
  9
$CLAYER
  8
0
  9
$CELTYPE
  6
ByLayer
  9
$CECOLOR
 62
   256
  9
$CELTSCALE
 40
1.0
  9
$DISPSILH
 70
     0
  9
$DIMSCALE
 40
1.0
  9
$DIMASZ
 40
2.0
  9
$DIMEXO
 40
1.0
  9
$DIMDLI
 40
1.0
  9
$DIMRND
 40
0.0
  9
$DIMDLE
 40
0.0
  9
$DIMEXE
 40
1.0
  9
$DIMTP
 40
0.0
  9
$DIMTM
 40
0.0
  9
$DIMTXT
 40
2.0
  9
$DIMCEN
 40
0.0
  9
$DIMTSZ
 40
0.0
  9
$DIMTOL
 70
     0
  9
$DIMLIM
 70
     0
  9
$DIMTIH
 70
     0
  9
$DIMTOH
 70
     0
  9
$DIMSE1
 70
     0
  9
$DIMSE2
 70
     0
  9
$DIMTAD
 70
     1
  9
$DIMZIN
 70
     8
  9
$DIMBLK
  1

  9
$DIMASO
 70
     1
  9
$DIMSHO
 70
     1
  9
$DIMPOST
  1

  9
$DIMAPOST
  1

  9
$DIMALT
 70
     0
  9
$DIMALTD
 70
     3
  9
$DIMALTF
 40
0.03937007874016
  9
$DIMLFAC
 40
1.0
  9
$DIMTOFL
 70
     1
  9
$DIMTVP
 40
0.0
  9
$DIMTIX
 70
     0
  9
$DIMSOXD
 70
     0
  9
$DIMSAH
 70
     0
  9
$DIMBLK1
  1

  9
$DIMBLK2
  1

  9
$DIMSTYLE
  2
SANINDUSA
  9
$DIMCLRD
 70
   256
  9
$DIMCLRE
 70
   256
  9
$DIMCLRT
 70
   256
  9
$DIMTFAC
 40
1.0
  9
$DIMGAP
 40
1.0
  9
$DIMJUST
 70
     0
  9
$DIMSD1
 70
     0
  9
$DIMSD2
 70
     0
  9
$DIMTOLJ
 70
     0
  9
$DIMTZIN
 70
     8
  9
$DIMALTZ
 70
     0
  9
$DIMALTTZ
 70
     0
  9
$DIMUPT
 70
     0
  9
$DIMDEC
 70
     1
  9
$DIMTDEC
 70
     1
  9
$DIMALTU
 70
     2
  9
$DIMALTTD
 70
     3
  9
$DIMTXSTY
  7
SANINDUSA
  9
$DIMAUNIT
 70
     0
  9
$DIMADEC
 70
     1
  9
$DIMALTRND
 40
0.0
  9
$DIMAZIN
 70
     0
  9
$DIMDSEP
 70
    44
  9
$DIMATFIT
 70
     3
  9
$DIMFRAC
 70
     0
  9
$DIMLDRBLK
  1

  9
$DIMLUNIT
 70
     2
  9
$DIMLWD
 70
    -1
  9
$DIMLWE
 70
    -1
  9
$DIMTMOVE
 70
     0
  9
$LUNITS
 70
     2
  9
$LUPREC
 70
     4
  9
$SKETCHINC
 40
1.0
  9
$FILLETRAD
 40
3.0
  9
$AUNITS
 70
     0
  9
$AUPREC
 70
     0
  9
$MENU
  1
.
  9
$ELEVATION
 40
0.0
  9
$PELEVATION
 40
0.0
  9
$THICKNESS
 40
0.0
  9
$LIMCHECK
 70
     0
  9
$CHAMFERA
 40
10.0
  9
$CHAMFERB
 40
10.0
  9
$CHAMFERC
 40
20.0
  9
$CHAMFERD
 40
0.0
  9
$SKPOLY
 70
     0
  9
$TDCREATE
 40
2453504.442034317
  9
$TDUCREATE
 40
2453504.400367651
  9
$TDUPDATE
 40
2453977.660629341
  9
$TDUUPDATE
 40
2453977.618962674
  9
$TDINDWG
 40
0.0016836690
  9
$TDUSRTIMER
 40
0.0016836690
  9
$USRTIMER
 70
     1
  9
$ANGBASE
 50
0.0
  9
$ANGDIR
 70
     0
  9
$PDMODE
 70
     0
  9
$PDSIZE
 40
0.0
  9
$PLINEWID
 40
0.0
  9
$SPLFRAME
 70
     0
  9
$SPLINETYPE
 70
     6
  9
$SPLINESEGS
 70
     8
  9
$HANDSEED
  5
10C7
  9
$SURFTAB1
 70
     6
  9
$SURFTAB2
 70
     6
  9
$SURFTYPE
 70
     6
  9
$SURFU
 70
     6
  9
$SURFV
 70
     6
  9
$UCSBASE
  2

  9
$UCSNAME
  2

  9
$UCSORG
 10
0.0
 20
0.0
 30
0.0
  9
$UCSXDIR
 10
1.0
 20
0.0
 30
0.0
  9
$UCSYDIR
 10
0.0
 20
1.0
 30
0.0
  9
$UCSORTHOREF
  2

  9
$UCSORTHOVIEW
 70
     0
  9
$UCSORGTOP
 10
0.0
 20
0.0
 30
0.0
  9
$UCSORGBOTTOM
 10
0.0
 20
0.0
 30
0.0
  9
$UCSORGLEFT
 10
0.0
 20
0.0
 30
0.0
  9
$UCSORGRIGHT
 10
0.0
 20
0.0
 30
0.0
  9
$UCSORGFRONT
 10
0.0
 20
0.0
 30
0.0
  9
$UCSORGBACK
 10
0.0
 20
0.0
 30
0.0
  9
$PUCSBASE
  2

  9
$PUCSNAME
  2

  9
$PUCSORG
 10
0.0
 20
0.0
 30
0.0
  9
$PUCSXDIR
 10
1.0
 20
0.0
 30
0.0
  9
$PUCSYDIR
 10
0.0
 20
1.0
 30
0.0
  9
$PUCSORTHOREF
  2

  9
$PUCSORTHOVIEW
 70
     0
  9
$PUCSORGTOP
 10
0.0
 20
0.0
 30
0.0
  9
$PUCSORGBOTTOM
 10
0.0
 20
0.0
 30
0.0
  9
$PUCSORGLEFT
 10
0.0
 20
0.0
 30
0.0
  9
$PUCSORGRIGHT
 10
0.0
 20
0.0
 30
0.0
  9
$PUCSORGFRONT
 10
0.0
 20
0.0
 30
0.0
  9
$PUCSORGBACK
 10
0.0
 20
0.0
 30
0.0
  9
$USERI1
 70
     0
  9
$USERI2
 70
     0
  9
$USERI3
 70
     0
  9
$USERI4
 70
     0
  9
$USERI5
 70
     0
  9
$USERR1
 40
0.0
  9
$USERR2
 40
0.0
  9
$USERR3
 40
0.0
  9
$USERR4
 40
0.0
  9
$USERR5
 40
0.0
  9
$WORLDVIEW
 70
     1
  9
$SHADEDGE
 70
     3
  9
$SHADEDIF
 70
    70
  9
$TILEMODE
 70
     1
  9
$MAXACTVP
 70
    64
  9
$PINSBASE
 10
0.0
 20
0.0
 30
0.0
  9
$PLIMCHECK
 70
     0
  9
$PEXTMIN
 10
1.000000000000000E+20
 20
1.000000000000000E+20
 30
1.000000000000000E+20
  9
$PEXTMAX
 10
-1.000000000000000E+20
 20
-1.000000000000000E+20
 30
-1.000000000000000E+20
  9
$PLIMMIN
 10
0.0
 20
0.0
  9
$PLIMMAX
 10
420.0
 20
297.0
  9
$UNITMODE
 70
     0
  9
$VISRETAIN
 70
     1
  9
$PLINEGEN
 70
     0
  9
$PSLTSCALE
 70
     1
  9
$TREEDEPTH
 70
  3020
  9
$CMLSTYLE
  2
Standard
  9
$CMLJUST
 70
     0
  9
$CMLSCALE
 40
20.0
  9
$PROXYGRAPHICS
 70
     1
  9
$MEASUREMENT
 70
     1
  9
$CELWEIGHT
370
    -1
  9
$ENDCAPS
280
     0
  9
$JOINSTYLE
280
     0
  9
$LWDISPLAY
290
     0
  9
$INSUNITS
 70
     6
  9
$HYPERLINKBASE
  1

  9
$STYLESHEET
  1
monochrome.ctb
  9
$XEDIT
290
     1
  9
$CEPSNTYPE
380
     0
  9
$PSTYLEMODE
290
     1
  9
$FINGERPRINTGUID
  2
{B98A73AA-52AA-4C10-B469-C0E7150AC31F}
  9
$VERSIONGUID
  2
{1B46937A-7E6F-447F-B61C-9F5CE5D51A02}
  9
$EXTNAMES
290
     1
  9
$PSVPSCALE
 40
0.0
  9
$OLESTARTUP
290
     0
  0
ENDSEC
  0
SECTION
  2
CLASSES
  0
CLASS
  1
ACDBDICTIONARYWDFLT
  2
AcDbDictionaryWithDefault
  3
ObjectDBX Classes
 90
        0
280
     0
281
     0
  0
CLASS
  1
ACDBPLACEHOLDER
  2
AcDbPlaceHolder
  3
ObjectDBX Classes
 90
        0
280
     0
281
     0
  0
CLASS
  1
LAYOUT
  2
AcDbLayout
  3
ObjectDBX Classes
 90
        0
280
     0
281
     0
  0
CLASS
  1
DICTIONARYVAR
  2
AcDbDictionaryVar
  3
ObjectDBX Classes
 90
        0
280
     0
281
     0
  0
CLASS
  1
DIMASSOC
  2
AcDbDimAssoc
  3
"AcDbDimAssoc|Product Desc:     AcDim ARX App For Dimension|Company:          Autodesk, Inc.|WEB Address:      www.autodesk.com"
 90
    32768
280
     0
281
     0
  0
CLASS
  1
TABLESTYLE
  2
AcDbTableStyle
  3
ObjectDBX Classes
 90
     2047
280
     0
281
     0
  0
ENDSEC
  0
SECTION
  2
TABLES
  0
TABLE
  2
VPORT
  5
8
330
0
100
AcDbSymbolTable
 70
     2
  0
VPORT
  5
10BF
330
8
100
AcDbSymbolTableRecord
100
AcDbViewportTableRecord
  2
*Active
 70
     0
 10
0.0
 20
0.0
 11
1.0
 21
1.0
 12
19.44839462720657
 22
962.6100039210813
 13
0.0
 23
0.0
 14
10.0
 24
10.0
 15
10.0
 25
10.0
 16
0.0
 26
0.0
 36
1.0
 17
0.0
 27
0.0
 37
0.0
 40
1.435585769456961
 41
1.593939393939393
 42
50.0
 43
0.0
 44
0.0
 50
0.0
 51
0.0
 71
     0
 72
   100
 73
     1
 74
     2
 75
     0
 76
     0
 77
     0
 78
     0
281
     0
 65
     1
110
0.0
120
0.0
130
0.0
111
1.0
121
0.0
131
0.0
112
0.0
122
1.0
132
0.0
 79
     0
146
0.0
  0
ENDTAB
  0
TABLE
  2
LTYPE
  5
5
330
0
100
AcDbSymbolTable
 70
     3
  0
LTYPE
  5
14
330
5
100
AcDbSymbolTableRecord
100
AcDbLinetypeTableRecord
  2
ByBlock
 70
     0
  3

 72
    65
 73
     0
 40
0.0
  0
LTYPE
  5
15
330
5
100
AcDbSymbolTableRecord
100
AcDbLinetypeTableRecord
  2
ByLayer
 70
     0
  3

 72
    65
 73
     0
 40
0.0
  0
LTYPE
  5
16
330
5
100
AcDbSymbolTableRecord
100
AcDbLinetypeTableRecord
  2
Continuous
 70
     0
  3
Solid line
 72
    65
 73
     0
 40
0.0
  0
LTYPE
  5
2D
330
5
100
AcDbSymbolTableRecord
100
AcDbLinetypeTableRecord
  2
DASHDOT
 70
     0
  3
Dash dot __ . __ . __ . __ . __ . __ . __ . __
 72
    65
 73
     4
 40
25.4
 49
12.7
 74
     0
 49
-6.349999999999999
 74
     0
 49
0.0
 74
     0
 49
-6.349999999999999
 74
     0
  0
LTYPE
  5
2E
330
5
100
AcDbSymbolTableRecord
100
AcDbLinetypeTableRecord
  2
HIDDEN
 70
     0
  3
Hidden __ __ __ __ __ __ __ __ __ __ __ __ __ _
 72
    65
 73
     2
 40
9.524999999999998
 49
6.349999999999999
 74
     0
 49
-3.174999999999999
 74
     0
  0
ENDTAB
  0
TABLE
  2
LAYER
  5
2
330
0
100
AcDbSymbolTable
 70
    16
  0
LAYER
  5
10
330
2
100
AcDbSymbolTableRecord
100
AcDbLayerTableRecord
  2
0
 70
     0
 62
     7
  6
Continuous
370
    -3
390
F
  0
LAYER
  5
2F
330
2
100
AcDbSymbolTableRecord
100
AcDbLayerTableRecord
  2
1
 70
     0
 62
     1
  6
Continuous
370
    -3
390
F
  0
LAYER
  5
30
330
2
100
AcDbSymbolTableRecord
100
AcDbLayerTableRecord
  2
2
 70
     0
 62
     2
  6
Continuous
370
    -3
390
F
  0
LAYER
  5
31
330
2
100
AcDbSymbolTableRecord
100
AcDbLayerTableRecord
  2
3
 70
     0
 62
     3
  6
Continuous
370
    -3
390
F
  0
LAYER
  5
32
330
2
100
AcDbSymbolTableRecord
100
AcDbLayerTableRecord
  2
4
 70
     0
 62
     4
  6
Continuous
370
    -3
390
F
  0
LAYER
  5
33
330
2
100
AcDbSymbolTableRecord
100
AcDbLayerTableRecord
  2
5
 70
     0
 62
     5
  6
Continuous
370
    -3
390
F
  0
LAYER
  5
34
330
2
100
AcDbSymbolTableRecord
100
AcDbLayerTableRecord
  2
6
 70
     0
 62
     6
  6
Continuous
370
    -3
390
F
  0
LAYER
  5
35
330
2
100
AcDbSymbolTableRecord
100
AcDbLayerTableRecord
  2
7
 70
     0
 62
     7
  6
Continuous
370
    -3
390
F
  0
LAYER
  5
36
330
2
100
AcDbSymbolTableRecord
100
AcDbLayerTableRecord
  2
cen
 70
     0
 62
     7
  6
DASHDOT
370
    -3
390
F
  0
LAYER
  5
37
330
2
100
AcDbSymbolTableRecord
100
AcDbLayerTableRecord
  2
hid
 70
     0
 62
     7
  6
HIDDEN
370
    -3
390
F
  0
LAYER
  5
5D6
330
2
100
AcDbSymbolTableRecord
100
AcDbLayerTableRecord
  2
hatch
 70
     0
 62
     9
  6
Continuous
370
    -3
390
F
  0
LAYER
  5
8AF
330
2
100
AcDbSymbolTableRecord
100
AcDbLayerTableRecord
  2
9
 70
     0
 62
     9
  6
Continuous
370
    -3
390
F
  0
LAYER
  5
8F8
330
2
100
AcDbSymbolTableRecord
100
AcDbLayerTableRecord
  2
leg fin
 70
     0
 62
     9
  6
Continuous
370
    -3
390
F
  0
LAYER
  5
91D
330
2
100
AcDbSymbolTableRecord
100
AcDbLayerTableRecord
  2
cotas
 70
     0
 62
     1
  6
Continuous
370
    -3
390
F
  0
LAYER
  5
92F
330
2
100
AcDbSymbolTableRecord
100
AcDbLayerTableRecord
  2
Defpoints
 70
     0
 62
     7
  6
Continuous
290
     0
370
    -3
390
F
  0
LAYER
  5
BA5
330
2
100
AcDbSymbolTableRecord
100
AcDbLayerTableRecord
  2
SANINDUSA
 70
     0
 62
     3
  6
Continuous
370
    -3
390
F
  0
ENDTAB
  0
TABLE
  2
STYLE
  5
3
330
0
100
AcDbSymbolTable
 70
     3
  0
STYLE
  5
11
330
3
100
AcDbSymbolTableRecord
100
AcDbTextStyleTableRecord
  2
Standard
 70
     0
 40
0.0
 41
1.0
 50
0.0
 71
     0
 42
2.5
  3
Avgardn.ttf
  4

1001
ACAD
1000
AvantGarde Bk BT
1071
       34
  0
STYLE
  5
2C
330
3
100
AcDbSymbolTableRecord
100
AcDbTextStyleTableRecord
  2

 70
     1
 40
0.0
 41
1.0
 50
0.0
 71
     0
 42
2.5
  3
ltypeshp.shx
  4

  0
STYLE
  5
91F
330
3
100
AcDbSymbolTableRecord
100
AcDbTextStyleTableRecord
  2
SANINDUSA
 70
     0
 40
0.0
 41
1.0
 50
0.0
 71
     0
 42
2.5
  3
verdana.TTF
  4

1001
ACAD
1000
Verdana
1071
       34
  0
ENDTAB
  0
TABLE
  2
VIEW
  5
6
330
0
100
AcDbSymbolTable
 70
     0
  0
ENDTAB
  0
TABLE
  2
UCS
  5
7
330
0
100
AcDbSymbolTable
 70
     0
  0
ENDTAB
  0
TABLE
  2
APPID
  5
9
330
0
100
AcDbSymbolTable
 70
     2
  0
APPID
  5
12
330
9
100
AcDbSymbolTableRecord
100
AcDbRegAppTableRecord
  2
ACAD
 70
     0
  0
APPID
  5
3A
330
9
100
AcDbSymbolTableRecord
100
AcDbRegAppTableRecord
  2
DCO15
 70
     0
  0
ENDTAB
  0
TABLE
  2
DIMSTYLE
  5
A
330
0
100
AcDbSymbolTable
 70
     2
100
AcDbDimStyleTable
 71
     1
340
921
  0
DIMSTYLE
105
45
330
A
100
AcDbSymbolTableRecord
100
AcDbDimStyleTableRecord
  2
STANDARD
 70
     0
289
     0
340
11
  0
DIMSTYLE
105
921
330
A
100
AcDbSymbolTableRecord
100
AcDbDimStyleTableRecord
  2
SANINDUSA
 70
     0
 41
2.0
 42
1.0
 43
1.0
 44
1.0
 73
     0
 74
     0
 77
     1
 78
     8
140
2.0
141
0.0
143
0.03937007874016
147
1.0
171
     3
172
     1
176
   256
177
   256
178
   256
179
     1
271
     1
272
     1
274
     3
278
    44
283
     0
284
     8
340
91F
371
    -1
372
    -1
  0
ENDTAB
  0
TABLE
  2
BLOCK_RECORD
  5
1
330
0
100
AcDbSymbolTable
 70
    60
  0
BLOCK_RECORD
  5
1F
330
1
100
AcDbSymbolTableRecord
100
AcDbBlockTableRecord
  2
*Model_Space
340
22
  0
BLOCK_RECORD
  5
1B
330
1
100
AcDbSymbolTableRecord
100
AcDbBlockTableRecord
  2
*Paper_Space
340
1E
  0
BLOCK_RECORD
  5
23
330
1
100
AcDbSymbolTableRecord
100
AcDbBlockTableRecord
  2
*Paper_Space0
340
26
  0
BLOCK_RECORD
  5
919
330
1
100
AcDbSymbolTableRecord
100
AcDbBlockTableRecord
  2
_DotSmall
340
0
  0
BLOCK_RECORD
  5
922
330
1
100
AcDbSymbolTableRecord
100
AcDbBlockTableRecord
  2
base para cotas
340
0
310
2800000020000000200000000100080000000000000400000000000000000000000000000000000000000000000080000080000000808000800000008000800080800000C0C0C000C0DCC000F0CAA6000020400000206000002080000020A0000020C0000020E00000400000004020000040400000406000004080000040A0
310
000040C0000040E00000600000006020000060400000606000006080000060A0000060C0000060E00000800000008020000080400000806000008080000080A0000080C0000080E00000A0000000A0200000A0400000A0600000A0800000A0A00000A0C00000A0E00000C0000000C0200000C0400000C0600000C0800000C0
310
A00000C0C00000C0E00000E0000000E0200000E0400000E0600000E0800000E0A00000E0C00000E0E00040000000400020004000400040006000400080004000A0004000C0004000E00040200000402020004020400040206000402080004020A0004020C0004020E000404000004040200040404000404060004040800040
310
40A0004040C0004040E00040600000406020004060400040606000406080004060A0004060C0004060E00040800000408020004080400040806000408080004080A0004080C0004080E00040A0000040A0200040A0400040A0600040A0800040A0A00040A0C00040A0E00040C0000040C0200040C0400040C0600040C08000
310
40C0A00040C0C00040C0E00040E0000040E0200040E0400040E0600040E0800040E0A00040E0C00040E0E00080000000800020008000400080006000800080008000A0008000C0008000E00080200000802020008020400080206000802080008020A0008020C0008020E00080400000804020008040400080406000804080
310
008040A0008040C0008040E00080600000806020008060400080606000806080008060A0008060C0008060E00080800000808020008080400080806000808080008080A0008080C0008080E00080A0000080A0200080A0400080A0600080A0800080A0A00080A0C00080A0E00080C0000080C0200080C0400080C0600080C0
310
800080C0A00080C0C00080C0E00080E0000080E0200080E0400080E0600080E0800080E0A00080E0C00080E0E000C0000000C0002000C0004000C0006000C0008000C000A000C000C000C000E000C0200000C0202000C0204000C0206000C0208000C020A000C020C000C020E000C0400000C0402000C0404000C0406000C0
310
408000C040A000C040C000C040E000C0600000C0602000C0604000C0606000C0608000C060A000C060C000C060E000C0800000C0802000C0804000C0806000C0808000C080A000C080C000C080E000C0A00000C0A02000C0A04000C0A06000C0A08000C0A0A000C0A0C000C0A0E000C0C00000C0C02000C0C04000C0C06000
310
C0C08000C0C0A000F0FBFF00A4A0A000808080000000FF0000FF000000FFFF00FF000000FF00FF00FFFF0000FFFFFF00A4A4A4A4A4A4A4A4A4A4A4A4A4A4A4A4A4A4A4A4A4A4A4A4A4A4A4A4A4A4A4A4A4A4A4A4A4A4A4A4A4A4A4A4A4A4A4A4A4A4A4A4A4A4A4A4A4A4A4A4A4A4A4A4A4A4A4A4A4A4A4A4A4A4A4A4A4A4A4
310
A4A4A4A4A4A4A4A4A4A4A4A4A4A4A4A4A4A4A4A4A4A4A4A4A4A4A4A4A4A4A4A4A4A4A4A4A4A4A4A4A4A4A4A4A4A4A4A4A4A4A4A4A4A4A4A4A4A4A4A4A4A4A4A4A4A4A4A4A4A4A4A4A4A4A4A4A4A4A4A4A4A4A4A4A4A4A4A4A4A4A4A4A4A4A4A4A4A4A4A4A4A4A4A4A4A4A4A4A4A4A4A4A4A4A4A4A4A4A4A4A4A4A4A4A4A4A4
310
A4A4A4A4A4A4A4A4A4A4A4A4A4A4A4A4A4A4A4A4A4A4A4A4A4A4A4A4A4A4A4A4A4A4A4A4A4A4A4A4A4A4A4A4A4A4A4A4A4A4A4A4A4A4A4A4A4A4A4A4A4A4A4A4A4A4A4A4A4A4A4A4A4A4A4A4A4A4A4A4A4A4A4A4A4A4A4A4A4A4A4A4A4A4A4A4A4A4A4A4A4A4A4A4A4A4A4A4A4A4A4A4A4A4A4A4A4A4A4A4A4A4A4A4A4A4A4
310
A4A4A4A4A4A4A4A4A4A4A4A4A4A4A4A4A4A4A4A4A4A4A4A4A4A4A4A4A4A4A4A4A4A4A4A4A4A4A4A4A4A4A4A4A4A4A4A4A4A4A4A4A4A4A4A4A4A4A4A4A4A4A4A4A4A4A4A4A4A4A4A4A4A4A4A4A4A4A4A4A4A4A4A4A4A4A4A4A4A4A4A4A4A4A4A4A4A4A4A4A4A4A4A4A4A4A4A4A4A4A4A4A4A4A4A4F9F9F9F9F9F9F9F9F9F9F9
310
F9F9F9F9F9F9F9F9F9F9F9F9F9F9F9F9F9F9F9A4A4F9F9F9F9F9F9F9F9F9F9F9F9F9F9F9F9F9F9F9F9F9F9F9F9F9F9F9F9F9F9A4A4F9F9F9F9F9F9F9F9F9F9F9F9F9F9F9F9F9F9F9F9F9F9F9F9F9F9F9F9F9F9A4A4F9A4A4A4A4A4A4A4A4A4A4A4A4A4A4A4A4A4A4A4A4A4A4A4A4A4A4A4A4F9A4A4A4A4A4A4A4A4A4A4A4A4
310
A4A4A4A4A4A4A4A4A4A4A4A4A4A4A4A4A4A4A4A4A4A4A4A4A4A4A4A4A4A4A4A4A4A4A4A4A4A4A4A4A4A4A4A4A4A4A4A4A4A4A4A4A4A4A4A4A4A4A4A4A4A4A4A4A4A4A4A4A4A4A4A4A4A4A4A4A4A4A4A4A4A4A4A4A4A4A4A4A4A4A4A4A4A4A4A4A4A4A4A4A4A4A4A4A4A4A4A4A4A4A4A4A4A4A4A4A4A4A4A4A4A4A4A4A4A4A4
310
A4A4A4A4A4A4A4A4A4A4A4A4A4A4A4A4A4A4A4A4A4A4A4A4A4A4A4A4A4A4A4A4A4A4A4A4A4A4A4A4A4A4A4A4A4A4A4A4A4A4A4A4A4A4A4A4A4A4A4A4A4A4A4A4A4A4A4A4A4A4A4A4A4A4A4A4A4A4A4A4A4A4A4A4A4A4A4A4A4A4A4A4A4A4A4A4A4A4A4A4A4A4A4A4A4A4A4A4A4A4A4A4A4A4A4A4A4A4A4A4A4A4A4A4A4A4A4
310
A4A4A4A4A4A4A4A4A4A4A4A4A4A4A4A4A4A4A4A4A4A4A4A4A4A4A4A4A4A4A4A4A4A4A4A4A4A4A4A4A4A4A4A4A4A4A4A4A4A4A4A4A4A4A4A4A4A4A4A4A4A4A4A4A4A4A4A4A4A4A4A4A4A4A4A4A4A4A4A4A4A4A4A4A4A4A4A4A4A4A4A4A4A4A4A4A4A4A4A4A4A4A4A4A4A4A4A4A4A4A4A4A4A4A4A4A4A4A4A4A4A4A4A4A4A4A4
310
A4A4A4A4A4A4A4A4A4A4A4A4A4A4A4A4A4A4A4A4A4A4A4A4A4A4A4A4A4A4A4A4A4A4A4A4A4A4A4A4A4A4A4A4A4A4A4A4A4A4A4A4A4A4A4A4
1001
ACAD
1000
DesignCenter Data
1002
{
1070
     1
1070
     4
1002
}
  0
BLOCK_RECORD
  5
AA8
330
1
100
AcDbSymbolTableRecord
100
AcDbBlockTableRecord
  2
_CLOSED
340
0
  0
ENDTAB
  0
ENDSEC
  0
SECTION
  2
BLOCKS
  0
BLOCK
  5
20
330
1F
100
AcDbEntity
  8
0
100
AcDbBlockBegin
  2
*Model_Space
 70
     0
 10
0.0
 20
0.0
 30
0.0
  3
*Model_Space
  1

  0
ENDBLK
  5
21
330
1F
100
AcDbEntity
  8
0
100
AcDbBlockEnd
  0
BLOCK
  5
1C
330
1B
100
AcDbEntity
 67
     1
  8
0
100
AcDbBlockBegin
  2
*Paper_Space
 70
     0
 10
0.0
 20
0.0
 30
0.0
  3
*Paper_Space
  1

  0
ENDBLK
  5
1D
330
1B
100
AcDbEntity
 67
     1
  8
0
100
AcDbBlockEnd
  0
BLOCK
  5
24
330
23
100
AcDbEntity
 67
     1
  8
0
100
AcDbBlockBegin
  2
*Paper_Space0
 70
     0
 10
0.0
 20
0.0
 30
0.0
  3
*Paper_Space0
  1

  0
ENDBLK
  5
25
330
23
100
AcDbEntity
 67
     1
  8
0
100
AcDbBlockEnd
  0
BLOCK
  5
91B
330
919
100
AcDbEntity
  8
0
100
AcDbBlockBegin
  2
_DotSmall
 70
     0
 10
0.0
 20
0.0
 30
0.0
  3
_DotSmall
  1

  0
LWPOLYLINE
  5
91A
330
919
100
AcDbEntity
  8
0
  6
ByBlock
 62
     0
100
AcDbPolyline
 90
        2
 70
     1
 43
0.5
 10
-0.0625
 20
0.0
 42
1.0
 10
0.0625
 20
0.0
 42
1.0
  0
ENDBLK
  5
91C
330
919
100
AcDbEntity
  8
0
100
AcDbBlockEnd
  0
BLOCK
  5
92A
330
922
100
AcDbEntity
  8
0
100
AcDbBlockBegin
  2
base para cotas
 70
     0
 10
0.0
 20
0.0
 30
0.0
  3
base para cotas
  1

  0
LINE
  5
B36
330
922
100
AcDbEntity
  8
cotas
100
AcDbLine
 10
0.0
 20
-30.0
 30
0.0
 11
327.1260136525398
 21
-30.0
 31
0.0
  0
LINE
  5
B37
330
922
100
AcDbEntity
  8
cotas
100
AcDbLine
 10
0.0
 20
-25.0
 30
0.0
 11
327.1260136525398
 21
-25.0
 31
0.0
  0
LINE
  5
B38
330
922
100
AcDbEntity
  8
cotas
100
AcDbLine
 10
0.0
 20
-20.0
 30
0.0
 11
327.1260136525398
 21
-20.0
 31
0.0
  0
LINE
  5
B39
330
922
100
AcDbEntity
  8
cotas
100
AcDbLine
 10
0.0
 20
-15.0
 30
0.0
 11
327.1260136525398
 21
-15.0
 31
0.0
  0
LINE
  5
B3A
330
922
100
AcDbEntity
  8
cotas
100
AcDbLine
 10
0.0
 20
-10.0
 30
0.0
 11
327.1260136525398
 21
-10.0
 31
0.0
  0
LINE
  5
B3B
330
922
100
AcDbEntity
  8
cotas
100
AcDbLine
 10
0.0
 20
0.0
 30
0.0
 11
0.0
 21
-30.0
 31
0.0
  0
LINE
  5
B3C
330
922
100
AcDbEntity
  8
cotas
100
AcDbLine
 10
327.1260136525398
 20
-30.0
 30
0.0
 11
327.1260136525398
 21
0.0
 31
0.0
  0
ENDBLK
  5
92B
330
922
100
AcDbEntity
  8
0
100
AcDbBlockEnd
  0
BLOCK
  5
AAD
330
AA8
100
AcDbEntity
  8
0
100
AcDbBlockBegin
  2
_CLOSED
 70
     0
 10
0.0
 20
0.0
 30
0.0
  3
_CLOSED
  1

  0
LINE
  5
AA9
330
AA8
100
AcDbEntity
  8
0
100
AcDbLine
 10
-1.0
 20
0.166667
 30
0.0
 11
0.0
 21
0.0
 31
0.0
  0
LINE
  5
AAA
330
AA8
100
AcDbEntity
  8
0
100
AcDbLine
 10
0.0
 20
0.0
 30
0.0
 11
-1.0
 21
-0.166667
 31
0.0
  0
LINE
  5
AAB
330
AA8
100
AcDbEntity
  8
0
100
AcDbLine
 10
-1.0
 20
0.166667
 30
0.0
 11
-1.0
 21
-0.166667
 31
0.0
  0
LINE
  5
AAC
330
AA8
100
AcDbEntity
  8
0
100
AcDbLine
 10
0.0
 20
0.0
 30
0.0
 11
-1.0
 21
0.0
 31
0.0
  0
ENDBLK
  5
AAE
330
AA8
100
AcDbEntity
  8
0
100
AcDbBlockEnd
  0
ENDSEC
  0
SECTION
  2
ENTITIES
  0
CIRCLE
  5
E06
330
1F
100
AcDbEntity
  8
SANINDUSA
100
AcDbCircle
 10
18.53110569660703
 20
962.6100039210813
 30
0.0
 40
0.1805861665537842
  0
CIRCLE
  5
E0D
330
1F
100
AcDbEntity
  8
SANINDUSA
100
AcDbCircle
 10
18.53110569660703
 20
962.6100039210813
 30
0.0
 40
0.0235
  0
CIRCLE
  5
E10
330
1F
100
AcDbEntity
  8
SANINDUSA
100
AcDbCircle
 10
18.53110569660703
 20
962.6100039210813
 30
0.0
 40
0.0394518677183489
  0
LWPOLYLINE
  5
E13
330
1F
100
AcDbEntity
  8
SANINDUSA
100
AcDbPolyline
 90
       22
 70
   128
 43
0.0
 10
18.53110569660703
 20
962.7675285501439
 10
18.5294287358839
 20
962.767589131104
 10
18.52561114854336
 20
962.7682136784223
 10
18.52241303858468
 20
962.7694466568627
 10
18.52019497623761
 20
962.7711449128309
 10
18.51920706683992
 20
962.7731131175057
 10
18.51956056472739
 20
962.7751277990558
 10
18.52121562064681
 20
962.776962715827
 10
18.52398569880612
 20
962.7784141461058
 10
18.52755853320573
 20
962.7793222830685
 10
18.53110569660703
 20
962.7795915242732
 10
18.5315311802033
 20
962.7795877376545
 10
18.53545571975621
 20
962.7791816092935
 10
18.53889003021905
 20
962.7781481764955
 10
18.54144673709775
 20
962.7766006405693
 10
18.54283763112432
 20
962.7747095880691
 10
18.54290581802067
 20
962.7726855265891
 10
18.54164364943078
 20
962.7707562863749
 10
18.53919343369315
 20
962.7691415616702
 10
18.53717944126031
 20
962.7683776759115
 10
18.53343543035196
 20
962.7676460161632
 10
18.53110569660703
 20
962.7675285501439
  0
LINE
  5
E1A
330
1F
100
AcDbEntity
  8
SANINDUSA
100
AcDbLine
 10
19.73325853798338
 20
962.6884931585044
 30
0.0
 11
19.94662733102548
 21
962.6884931585044
 31
0.0
  0
LINE
  5
E1B
330
1F
100
AcDbEntity
  8
SANINDUSA
100
AcDbLine
 10
19.95825853798338
 20
962.6384931585043
 30
0.0
 11
19.50825853798338
 21
962.6384931585043
 31
0.0
  0
LINE
  5
E1D
330
1F
100
AcDbEntity
  8
SANINDUSA
100
AcDbLine
 10
19.88825853798338
 20
962.5184931585044
 30
0.0
 11
19.57825853798338
 21
962.5184931585044
 31
0.0
  0
ARC
  5
E22
330
1F
100
AcDbEntity
  8
SANINDUSA
100
AcDbCircle
 10
19.92757382653822
 20
962.6991740508419
 30
0.0
 40
0.3932769452612852
100
AcDbArc
 50
188.8759441991742
 51
207.3499496265061
  0
LINE
  5
E28
330
1F
100
AcDbEntity
  8
SANINDUSA
100
AcDbLine
 10
19.51988974494128
 20
962.6884931585044
 30
0.0
 11
19.73325853798338
 21
962.6884931585044
 31
0.0
  0
ARC
  5
E29
330
1F
100
AcDbEntity
  8
SANINDUSA
100
AcDbCircle
 10
20.00950853798338
 20
962.6384931585043
 30
0.0
 40
0.5012499999999954
100
AcDbArc
 50
175.3295241784195
 51
180.0
  0
ARC
  5
E2C
330
1F
100
AcDbEntity
  8
SANINDUSA
100
AcDbCircle
 10
19.51988974494128
 20
962.6784931585044
 30
0.0
 40
0.01
100
AcDbArc
 50
90.0
 51
175.3295241784195
  0
ARC
  5
E35
330
1F
100
AcDbEntity
  8
SANINDUSA
100
AcDbCircle
 10
19.53894324942853
 20
962.6991740508419
 30
0.0
 40
0.3932769452612854
100
AcDbArc
 50
332.6500503734938
 51
351.1240558008257
  0
ARC
  5
E36
330
1F
100
AcDbEntity
  8
SANINDUSA
100
AcDbCircle
 10
19.45700853798338
 20
962.6384931585043
 30
0.0
 40
0.5012499999999954
100
AcDbArc
 50
0.0
 51
4.670475821580481
  0
ARC
  5
E38
330
1F
100
AcDbEntity
  8
SANINDUSA
100
AcDbCircle
 10
19.94662733102548
 20
962.6784931585044
 30
0.0
 40
0.01
100
AcDbArc
 50
4.670475821580481
 51
90.0
  0
LINE
  5
E40
330
1F
100
AcDbEntity
  8
SANINDUSA
100
AcDbLine
 10
20.26039914803918
 20
962.5184931585044
 30
0.0
 11
20.24627012829522
 21
962.5184931585044
 31
0.0
  0
ARC
  5
E43
330
1F
100
AcDbEntity
  8
SANINDUSA
100
AcDbCircle
 10
20.3459384989801
 20
962.728378048094
 30
0.0
 40
0.1800000000000001
100
AcDbArc
 50
214.2201416671567
 51
262.7909629615174
  0
ARC
  5
E44
330
1F
100
AcDbEntity
  8
SANINDUSA
100
AcDbCircle
 10
20.3459384989801
 20
962.728378048094
 30
0.0
 40
0.17
100
AcDbArc
 50
214.3938696007244
 51
262.4940998492388
  0
ARC
  5
E45
330
1F
100
AcDbEntity
  8
SANINDUSA
100
AcDbCircle
 10
20.34743135019241
 20
962.7075471446007
 30
0.0
 40
0.184102997091658
100
AcDbArc
 50
190.3745176807268
 51
262.624632940395
  0
ARC
  5
E46
330
1F
100
AcDbEntity
  8
SANINDUSA
100
AcDbCircle
 10
20.34743135019241
 20
962.7075471446007
 30
0.0
 40
0.1781046481846396
100
AcDbArc
 50
189.3885461429908
 51
267.2004575078773
  0
LINE
  5
E47
330
1F
100
AcDbEntity
  8
SANINDUSA
100
AcDbLine
 10
20.17298909079776
 20
962.6884931585044
 30
0.0
 11
20.55337802481448
 21
962.6884931585044
 31
0.0
  0
LWPOLYLINE
  5
E4C
330
1F
100
AcDbEntity
  8
SANINDUSA
100
AcDbPolyline
 90
       14
 70
   128
 43
0.0
 10
20.17898521532334
 20
962.6336390967363
 10
20.17926611999996
 20
962.6322710386089
 10
20.18173268035643
 20
962.6218334827502
 10
20.18449225165787
 20
962.6115346382478
 10
20.18753433342409
 20
962.6014074143803
 10
20.19084361506874
 20
962.5914722963111
 10
20.1944939366764
 20
962.581511617374
 10
20.19840845626121
 20
962.5717575581703
 10
20.20258625908792
 20
962.5622042241445
 10
20.20702727028928
 20
962.5528452419146
 10
20.21173196222005
 20
962.5436745910111
 10
20.2167013504447
 20
962.5346866073131
 10
20.22193614772898
 20
962.5258771742412
 10
20.22665262324566
 20
962.5184680199719
  0
LINE
  5
E4E
330
1F
100
AcDbEntity
  8
SANINDUSA
100
AcDbLine
 10
20.24053059208576
 20
962.5184931585044
 30
0.0
 11
20.23221234770468
 21
962.5184931585044
 31
0.0
  0
LINE
  5
E4F
330
1F
100
AcDbEntity
  8
SANINDUSA
100
AcDbLine
 10
20.22669210087204
 20
962.5184931585044
 30
0.0
 11
20.23221234770468
 21
962.5184931585044
 31
0.0
  0
LINE
  5
E50
330
1F
100
AcDbEntity
  8
SANINDUSA
100
AcDbLine
 10
20.24053059208576
 20
962.5184931585044
 30
0.0
 11
20.24616872837116
 21
962.5184931585044
 31
0.0
  0
ARC
  5
E58
330
1F
100
AcDbEntity
  8
SANINDUSA
100
AcDbCircle
 10
20.16141987328845
 20
962.6734931585044
 30
0.0
 40
0.005
100
AcDbArc
 50
10.37451768072678
 51
90.0
  0
LINE
  5
E59
330
1F
100
AcDbEntity
  8
SANINDUSA
100
AcDbLine
 10
20.17298909079776
 20
962.6884931585044
 30
0.0
 11
20.14981476476402
 21
962.6884931585044
 31
0.0
  0
LINE
  5
E5D
330
1F
100
AcDbEntity
  8
SANINDUSA
100
AcDbLine
 10
20.15408241678295
 20
962.6384931585043
 30
0.0
 11
20.17676951924498
 21
962.6384931585043
 31
0.0
  0
ARC
  5
E63
330
1F
100
AcDbEntity
  8
SANINDUSA
100
AcDbCircle
 10
20.63943355780611
 20
962.6384931585043
 30
0.0
 40
0.5012499999999953
100
AcDbArc
 50
175.3295241784195
 51
180.0
  0
ARC
  5
E64
330
1F
100
AcDbEntity
  8
SANINDUSA
100
AcDbCircle
 10
20.63943355780611
 20
962.6384931585043
 30
0.0
 40
0.4942499999999953
100
AcDbArc
 50
175.8976664327597
 51
180.0
  0
LINE
  5
E67
330
1F
100
AcDbEntity
  8
SANINDUSA
100
AcDbLine
 10
20.15151396278175
 20
962.6384931585043
 30
0.0
 11
20.15408241678295
 21
962.6384931585043
 31
0.0
  0
LINE
  5
E68
330
1F
100
AcDbEntity
  8
SANINDUSA
100
AcDbLine
 10
20.14518355780611
 20
962.6384931585043
 30
0.0
 11
20.15151396278175
 21
962.6384931585043
 31
0.0
  0
LINE
  5
E69
330
1F
100
AcDbEntity
  8
SANINDUSA
100
AcDbLine
 10
20.13818355780612
 20
962.6384931585043
 30
0.0
 11
20.14518355780611
 21
962.6384931585043
 31
0.0
  0
ARC
  5
E75
330
1F
100
AcDbEntity
  8
SANINDUSA
100
AcDbCircle
 10
20.15143707984751
 20
962.6734931585044
 30
0.0
 40
0.0050000000000003
100
AcDbArc
 50
90.0
 51
175.8976664327597
  0
LINE
  5
E78
330
1F
100
AcDbEntity
  8
SANINDUSA
100
AcDbLine
 10
20.16141987328845
 20
962.6784931585044
 30
0.0
 11
20.15143707984751
 21
962.6784931585044
 31
0.0
  0
ARC
  5
E79
330
1F
100
AcDbEntity
  8
SANINDUSA
100
AcDbCircle
 10
20.14981476476402
 20
962.6784931585044
 30
0.0
 40
0.01
100
AcDbArc
 50
90.0
 51
175.3295241784064
  0
ARC
  5
E7A
330
1F
100
AcDbEntity
  8
SANINDUSA
100
AcDbCircle
 10
20.3459384989801
 20
962.728378048094
 30
0.0
 40
0.17
100
AcDbArc
 50
196.0894820406326
 51
206.3457169001352
  0
ARC
  5
E7B
330
1F
100
AcDbEntity
  8
SANINDUSA
100
AcDbCircle
 10
20.3459384989801
 20
962.728378048094
 30
0.0
 40
0.18
100
AcDbArc
 50
196.0894820406393
 51
206.532238382199
  0
ARC
  5
E7D
330
1F
100
AcDbEntity
  8
SANINDUSA
100
AcDbCircle
 10
20.20483375480097
 20
962.6317837875495
 30
0.0
 40
0.0010000000000001
100
AcDbArc
 50
34.39386960073322
 51
120.5122624928754
  0
ARC
  5
E7E
330
1F
100
AcDbEntity
  8
SANINDUSA
100
AcDbCircle
 10
20.19792645463944
 20
962.627713085321
 30
0.0
 40
0.0010000000000003
100
AcDbArc
 50
120.5122624928499
 51
214.2201416671491
  0
ARC
  5
E7F
330
1F
100
AcDbEntity
  8
SANINDUSA
100
AcDbCircle
 10
20.18579021340282
 20
962.6484185169132
 30
0.0
 40
0.0010000000000001
100
AcDbArc
 50
206.5322383822198
 51
300.5122624928784
  0
LINE
  5
E80
330
1F
100
AcDbEntity
  8
SANINDUSA
100
AcDbLine
 10
20.19320754475824
 20
962.6516290590631
 30
0.0
 11
20.18629793616078
 21
962.6475569963963
 31
0.0
  0
ARC
  5
E81
330
1F
100
AcDbEntity
  8
SANINDUSA
100
AcDbCircle
 10
20.19269982200027
 20
962.65249057958
 30
0.0
 40
0.0009999999999999
100
AcDbArc
 50
300.5122624928641
 51
26.3457169001498
  0
LWPOLYLINE
  5
E82
330
1F
100
AcDbEntity
  8
SANINDUSA
100
AcDbPolyline
 90
        9
 70
   128
 43
0.0
 10
20.18854315100647
 20
962.6416814132285
 10
20.18829783844295
 20
962.6421027195872
 10
20.18741988653973
 20
962.6436126254143
 10
20.1866427430407
 20
962.6449518215689
 10
20.18598985827321
 20
962.6460788385372
 10
20.18547716692403
 20
962.6469650851218
 10
20.18512107858426
 20
962.6475812475531
 10
20.1849289031667
 20
962.6479140144409
 10
20.18489553024317
 20
962.6479718156216
  0
LINE
  5
E84
330
1F
100
AcDbEntity
  8
SANINDUSA
100
AcDbLine
 10
20.19316878143906
 20
962.6337856116293
 30
0.0
 11
20.18854315100647
 21
962.6416814132285
 31
0.0
  0
LWPOLYLINE
  5
E86
330
1F
100
AcDbEntity
  8
SANINDUSA
100
AcDbPolyline
 90
        7
 70
   128
 43
0.0
 10
20.19709957171016
 20
962.6271507112274
 10
20.1969662620236
 20
962.6273745601487
 10
20.1966658110986
 20
962.6278793627049
 10
20.19620401288654
 20
962.6286561003642
 10
20.19559214199582
 20
962.6296867762203
 10
20.19485015686313
 20
962.6309389226076
 10
20.19316878143905
 20
962.6337856116292
  0
LINE
  5
E88
330
1F
100
AcDbEntity
  8
SANINDUSA
100
AcDbLine
 10
20.19741873188147
 20
962.628574605838
 30
0.0
 11
20.204326032043
 21
962.6326453080665
 31
0.0
  0
LWPOLYLINE
  5
E8A
330
1F
100
AcDbEntity
  8
SANINDUSA
100
AcDbPolyline
 90
       12
 70
   128
 43
0.0
 10
20.19359595461419
 20
962.6529343659456
 10
20.19359974123287
 20
962.6529277978534
 10
20.19400586959379
 20
962.6522237180431
 10
20.19503930239171
 20
962.6504354533887
 10
20.19658683831805
 20
962.6477666148849
 10
20.19847789081822
 20
962.6445202901791
 10
20.20050195229829
 20
962.6410641941204
 10
20.20243119251246
 20
962.6377882874527
 10
20.20404591721717
 20
962.6350604852293
 10
20.20480980297589
 20
962.6337745796242
 10
20.20554146272415
 20
962.632545703498
 10
20.20565892874353
 20
962.6323486662663
  0
LINE
  5
E8F
330
1F
100
AcDbEntity
  8
SANINDUSA
100
AcDbLine
 10
20.17298909079776
 20
962.6784931585044
 30
0.0
 11
20.17171245081934
 21
962.6784931585044
 31
0.0
  0
ARC
  5
E90
330
1F
100
AcDbEntity
  8
SANINDUSA
100
AcDbCircle
 10
20.17298909079776
 20
962.6784931585044
 30
0.0
 40
0.01
100
AcDbArc
 50
16.08948204063931
 51
90.0
  0
ARC
  5
E94
330
1F
100
AcDbEntity
  8
SANINDUSA
100
AcDbCircle
 10
20.38042861663213
 20
962.728378048094
 30
0.0
 40
0.1700000000000002
100
AcDbArc
 50
277.5059001507611
 51
343.9105179593674
  0
ARC
  5
E9E
330
1F
100
AcDbEntity
  8
SANINDUSA
100
AcDbCircle
 10
20.16886826925127
 20
962.6991740508419
 30
0.0
 40
0.3932769452612854
100
AcDbArc
 50
332.6500503734938
 51
351.2363680005909
  0
ARC
  5
E9F
330
1F
100
AcDbEntity
  8
SANINDUSA
100
AcDbCircle
 10
20.38042861663213
 20
962.728378048094
 30
0.0
 40
0.1800000000000002
100
AcDbArc
 50
296.2251717805705
 51
343.9105179593674
  0
ARC
  5
EA0
330
1F
100
AcDbEntity
  8
SANINDUSA
100
AcDbCircle
 10
20.16886826925127
 20
962.6991740508419
 30
0.0
 40
0.3832769452612854
100
AcDbArc
 50
333.5561853976515
 51
351.2363680005909
  0
ARC
  5
EA5
330
1F
100
AcDbEntity
  8
SANINDUSA
100
AcDbCircle
 10
20.38042861663213
 20
962.728378048094
 30
0.0
 40
0.1800000000000001
100
AcDbArc
 50
278.5171799974658
 51
290.5783645494694
  0
LINE
  5
EA7
330
1F
100
AcDbEntity
  8
SANINDUSA
100
AcDbLine
 10
20.397200860543
 20
962.5184931585044
 30
0.0
 11
20.48318355780612
 21
962.5184931585044
 31
0.0
  0
LINE
  5
EAB
330
1F
100
AcDbEntity
  8
SANINDUSA
100
AcDbLine
 10
20.38668355780612
 20
962.5461616202136
 30
0.0
 11
20.38668355780612
 21
962.5194931585044
 31
0.0
  0
LINE
  5
EAC
330
1F
100
AcDbEntity
  8
SANINDUSA
100
AcDbLine
 10
20.39820070823815
 20
962.5194757060979
 30
0.0
 11
20.39857027178333
 21
962.5406479874213
 31
0.0
  0
LINE
  5
EAD
330
1F
100
AcDbEntity
  8
SANINDUSA
100
AcDbLine
 10
20.33968355780611
 20
962.5194931585044
 30
0.0
 11
20.33968355780611
 21
962.5286562529106
 31
0.0
  0
ARC
  5
EAE
330
1F
100
AcDbEntity
  8
SANINDUSA
100
AcDbCircle
 10
20.3231563422579
 20
962.5200087018781
 30
0.0
 40
0.0050000000000001
100
AcDbArc
 50
1.000000000001775
 51
82.62463294039497
  0
LINE
  5
EB5
330
1F
100
AcDbEntity
  8
SANINDUSA
100
AcDbLine
 10
20.38768355780611
 20
962.5184931585044
 30
0.0
 11
20.33868355780612
 21
962.5184931585044
 31
0.0
  0
LINE
  5
EB7
330
1F
100
AcDbEntity
  8
SANINDUSA
100
AcDbLine
 10
20.26559393419768
 20
962.5184931585044
 30
0.0
 11
20.32916625506923
 21
962.5184931585044
 31
0.0
  0
LINE
  5
EB8
330
1F
100
AcDbEntity
  8
SANINDUSA
100
AcDbLine
 10
20.26039914803918
 20
962.5184931585044
 30
0.0
 11
20.26559393419768
 21
962.5184931585044
 31
0.0
  0
ARC
  5
EB9
330
1F
100
AcDbEntity
  8
SANINDUSA
100
AcDbCircle
 10
20.33868355780612
 20
962.5194931585044
 30
0.0
 40
0.0010000000000001
100
AcDbArc
 50
270.0
 51
0.0
  0
LINE
  5
EBA
330
1F
100
AcDbEntity
  8
SANINDUSA
100
AcDbLine
 10
20.32815558073369
 20
962.5200959639103
 30
0.0
 11
20.32816640737407
 21
962.5194757060979
 31
0.0
  0
ARC
  5
EBB
330
1F
100
AcDbEntity
  8
SANINDUSA
100
AcDbCircle
 10
20.32916625506923
 20
962.5194931585044
 30
0.0
 40
0.0010000000000001
100
AcDbArc
 50
181.0000000006077
 51
270.0
  0
LINE
  5
EBC
330
1F
100
AcDbEntity
  8
SANINDUSA
100
AcDbLine
 10
20.32916625506923
 20
962.5184931585044
 30
0.0
 11
20.33868355780612
 21
962.5184931585044
 31
0.0
  0
LINE
  5
EBD
330
1F
100
AcDbEntity
  8
SANINDUSA
100
AcDbLine
 10
20.38768355780611
 20
962.5184931585044
 30
0.0
 11
20.397200860543
 21
962.5184931585044
 31
0.0
  0
ARC
  5
EBE
330
1F
100
AcDbEntity
  8
SANINDUSA
100
AcDbCircle
 10
20.38768355780611
 20
962.5194931585044
 30
0.0
 40
0.0010000000000001
100
AcDbArc
 50
180.0
 51
270.0
  0
ARC
  5
EBF
330
1F
100
AcDbEntity
  8
SANINDUSA
100
AcDbCircle
 10
20.397200860543
 20
962.5194931585044
 30
0.0
 40
0.0010000000000002
100
AcDbArc
 50
270.0
 51
359.0000000000113
  0
LINE
  5
EC3
330
1F
100
AcDbEntity
  8
SANINDUSA
100
AcDbLine
 10
20.32373169008776
 20
962.5598347075587
 30
0.0
 11
20.40263542552446
 21
962.5598347075587
 31
0.0
  0
ARC
  5
EC4
330
1F
100
AcDbEntity
  8
SANINDUSA
100
AcDbCircle
 10
20.33868355780612
 20
962.5441615793725
 30
0.0
 40
0.001
100
AcDbArc
 50
264.1671348451657
 51
0.0
  0
LINE
  5
EC5
330
1F
100
AcDbEntity
  8
SANINDUSA
100
AcDbLine
 10
20.33968355780611
 20
962.5441615793725
 30
0.0
 11
20.33968355780611
 21
962.5461616202136
 31
0.0
  0
ARC
  5
EC6
330
1F
100
AcDbEntity
  8
SANINDUSA
100
AcDbCircle
 10
20.33468355780612
 20
962.5461616202136
 30
0.0
 40
0.005
100
AcDbArc
 50
0.0
 51
49.99999999999991
  0
ARC
  5
ED0
330
1F
100
AcDbEntity
  8
SANINDUSA
100
AcDbCircle
 10
20.32272290182283
 20
962.544840487773
 30
0.0
 40
0.005
100
AcDbArc
 50
1.000000000001775
 51
82.7909629615141
  0
LINE
  5
ED1
330
1F
100
AcDbEntity
  8
SANINDUSA
100
AcDbLine
 10
20.32772214029861
 20
962.5449277498052
 30
0.0
 11
20.32773353436826
 21
962.5442749839921
 31
0.0
  0
ARC
  5
ED2
330
1F
100
AcDbEntity
  8
SANINDUSA
100
AcDbCircle
 10
20.32242540721175
 20
962.5499203934095
 30
0.0
 40
0.01
100
AcDbArc
 50
49.99999999999991
 51
82.49409984923884
  0
LINE
  5
ED4
330
1F
100
AcDbEntity
  8
SANINDUSA
100
AcDbLine
 10
20.32773353436826
 20
962.5442749839921
 30
0.0
 11
20.33858193085688
 21
962.5431667567939
 31
0.0
  0
LINE
  5
ED5
330
1F
100
AcDbEntity
  8
SANINDUSA
100
AcDbLine
 10
20.33789749585455
 20
962.5499918424292
 30
0.0
 11
20.32885328330861
 21
962.5575808378409
 31
0.0
  0
ARC
  5
ED7
330
1F
100
AcDbEntity
  8
SANINDUSA
100
AcDbCircle
 10
20.33868355780612
 20
962.5286562529106
 30
0.0
 40
0.001
100
AcDbArc
 50
0.0
 51
87.20045750789031
  0
LINE
  5
EDD
330
1F
100
AcDbEntity
  8
SANINDUSA
100
AcDbLine
 10
20.39751383230361
 20
962.5575808378409
 30
0.0
 11
20.38846961975768
 21
962.5499918424292
 31
0.0
  0
ARC
  5
EDE
330
1F
100
AcDbEntity
  8
SANINDUSA
100
AcDbCircle
 10
20.39168355780612
 20
962.5461616202136
 30
0.0
 40
0.0050000000000003
100
AcDbArc
 50
130.0000000000001
 51
180.0
  0
ARC
  5
EDF
330
1F
100
AcDbEntity
  8
SANINDUSA
100
AcDbCircle
 10
20.40394170840048
 20
962.5499203934095
 30
0.0
 40
0.0100000000000002
100
AcDbArc
 50
97.50590015076118
 51
130.0000000000001
  0
ARC
  5
EE0
330
1F
100
AcDbEntity
  8
SANINDUSA
100
AcDbCircle
 10
20.4085687487349
 20
962.5404734633569
 30
0.0
 40
0.0100000000000001
100
AcDbArc
 50
98.51717999746581
 51
178.9999999999982
  0
LINE
  5
EE4
330
1F
100
AcDbEntity
  8
SANINDUSA
100
AcDbLine
 10
20.45526541178386
 20
962.5564287612435
 30
0.0
 11
20.48318355780612
 21
962.5184931585044
 31
0.0
  0
LINE
  5
EE8
330
1F
100
AcDbEntity
  8
SANINDUSA
100
AcDbLine
 10
20.48318355780612
 20
962.5184931585044
 30
0.0
 11
20.49818355780612
 21
962.5184931585044
 31
0.0
  0
LINE
  5
EE9
330
1F
100
AcDbEntity
  8
SANINDUSA
100
AcDbLine
 10
20.49818355780612
 20
962.5184931585044
 30
0.0
 11
20.50318355780611
 21
962.5184931585044
 31
0.0
  0
ARC
  5
EEA
330
1F
100
AcDbEntity
  8
SANINDUSA
100
AcDbCircle
 10
20.50068355780611
 20
962.5158681585045
 30
0.0
 40
0.003625
100
AcDbArc
 50
46.39718102729438
 51
133.6028189727056
  0
LINE
  5
EEB
330
1F
100
AcDbEntity
  8
SANINDUSA
100
AcDbLine
 10
20.50318355780611
 20
962.5184931585044
 30
0.0
 11
20.51818355780612
 21
962.5184931585044
 31
0.0
  0
LINE
  5
EEC
330
1F
100
AcDbEntity
  8
SANINDUSA
100
AcDbLine
 10
20.45997061718908
 20
962.5669064711916
 30
0.0
 11
20.48824032678538
 21
962.5284931585044
 31
0.0
  0
ARC
  5
EED
330
1F
100
AcDbEntity
  8
SANINDUSA
100
AcDbCircle
 10
20.44721136665796
 20
962.5505015057987
 30
0.0
 40
0.0100000000000003
100
AcDbArc
 50
36.35066060278451
 51
110.578364549466
  0
LINE
  5
EEE
330
1F
100
AcDbEntity
  8
SANINDUSA
100
AcDbLine
 10
20.48824032678538
 20
962.5284931585044
 30
0.0
 11
20.51204351567747
 21
962.5284931585044
 31
0.0
  0
ARC
  5
EF6
330
1F
100
AcDbEntity
  8
SANINDUSA
100
AcDbCircle
 10
20.08693355780612
 20
962.6384931585043
 30
0.0
 40
0.5012499999999953
100
AcDbArc
 50
0.0
 51
4.670475821580481
  0
ARC
  5
EF7
330
1F
100
AcDbEntity
  8
SANINDUSA
100
AcDbCircle
 10
20.08693355780612
 20
962.6384931585043
 30
0.0
 40
0.4912499999999954
100
AcDbArc
 50
1.749761419989682
 51
4.670475821580481
  0
LINE
  5
EF8
330
1F
100
AcDbEntity
  8
SANINDUSA
100
AcDbLine
 10
20.55743561859906
 20
962.6384931585043
 30
0.0
 11
20.58118355780611
 21
962.6384931585043
 31
0.0
  0
ARC
  5
EF9
330
1F
100
AcDbEntity
  8
SANINDUSA
100
AcDbCircle
 10
20.57252330376827
 20
962.6334931585043
 30
0.0
 40
0.0100000000000001
100
AcDbArc
 50
30.00000000000084
 51
90.0
  0
LINE
  5
EFA
330
1F
100
AcDbEntity
  8
SANINDUSA
100
AcDbLine
 10
20.56249544619892
 20
962.6534931585043
 30
0.0
 11
20.57795449676901
 21
962.6534931585043
 31
0.0
  0
ARC
  5
EFB
330
1F
100
AcDbEntity
  8
SANINDUSA
100
AcDbCircle
 10
20.56249544619892
 20
962.6384931585043
 30
0.0
 40
0.0050000000000003
100
AcDbArc
 50
90.0
 51
171.2363680005908
  0
LINE
  5
EFC
330
1F
100
AcDbEntity
  8
SANINDUSA
100
AcDbLine
 10
20.56249544619892
 20
962.6434931585043
 30
0.0
 11
20.57252330376827
 21
962.6434931585043
 31
0.0
  0
ARC
  5
EFE
330
1F
100
AcDbEntity
  8
SANINDUSA
100
AcDbCircle
 10
20.56249544619892
 20
962.6384931585043
 30
0.0
 40
0.0150000000000003
100
AcDbArc
 50
90.0
 51
171.2363680005908
  0
LINE
  5
F00
330
1F
100
AcDbEntity
  8
SANINDUSA
100
AcDbLine
 10
20.58118355780611
 20
962.6384931585043
 30
0.0
 11
20.58818355780612
 21
962.6384931585043
 31
0.0
  0
ARC
  5
F01
330
1F
100
AcDbEntity
  8
SANINDUSA
100
AcDbCircle
 10
20.57655235084821
 20
962.6784931585044
 30
0.0
 40
0.01
100
AcDbArc
 50
4.670475821593532
 51
90.0
  0
ARC
  5
F03
330
1F
100
AcDbEntity
  8
SANINDUSA
100
AcDbCircle
 10
20.55337802481448
 20
962.6784931585044
 30
0.0
 40
0.01
100
AcDbArc
 50
90.0
 51
163.9105179593606
  0
LINE
  5
F04
330
1F
100
AcDbEntity
  8
SANINDUSA
100
AcDbLine
 10
20.57655235084821
 20
962.6884931585044
 30
0.0
 11
20.55337802481448
 21
962.6884931585044
 31
0.0
  0
LINE
  5
F05
330
1F
100
AcDbEntity
  8
SANINDUSA
100
AcDbLine
 10
20.57655235084821
 20
962.6784931585044
 30
0.0
 11
20.55337802481448
 21
962.6784931585044
 31
0.0
  0
LINE
  5
F0C
330
1F
100
AcDbEntity
  8
SANINDUSA
100
AcDbLine
 10
18.88676728454131
 20
962.6884931585044
 30
0.0
 11
19.31350487062357
 21
962.6884931585044
 31
0.0
  0
LINE
  5
F0D
330
1F
100
AcDbEntity
  8
SANINDUSA
100
AcDbLine
 10
19.32513607758147
 20
962.6384931585043
 30
0.0
 11
18.87513607758147
 21
962.6384931585043
 31
0.0
  0
LINE
  5
F0F
330
1F
100
AcDbEntity
  8
SANINDUSA
100
AcDbLine
 10
19.25513607758147
 20
962.5184931585044
 30
0.0
 11
18.96415226341009
 21
962.5184931585044
 31
0.0
  0
LWPOLYLINE
  5
F10
330
1F
100
AcDbEntity
  8
SANINDUSA
100
AcDbPolyline
 90
       14
 70
   128
 43
0.0
 10
18.91608621740424
 20
962.6329159602356
 10
18.91621863977532
 20
962.6322710386089
 10
18.91868520013178
 20
962.6218334827502
 10
18.92144477143323
 20
962.6115346382478
 10
18.92448685319944
 20
962.6014074143803
 10
18.9277961348441
 20
962.5914722963111
 10
18.93144645645176
 20
962.581511617374
 10
18.93536097603657
 20
962.5717575581703
 10
18.93953877886328
 20
962.5622042241445
 10
18.94397979006464
 20
962.5528452419146
 10
18.94868448199541
 20
962.5436745910111
 10
18.95365387022005
 20
962.5346866073131
 10
18.95888866750433
 20
962.5258771742412
 10
18.96358914048301
 20
962.5184931585044
  0
ARC
  5
F16
330
1F
100
AcDbEntity
  8
SANINDUSA
100
AcDbCircle
 10
19.37638607758147
 20
962.6384931585043
 30
0.0
 40
0.5012499999999954
100
AcDbArc
 50
175.329524178413
 51
180.0
  0
ARC
  5
F17
330
1F
100
AcDbEntity
  8
SANINDUSA
100
AcDbCircle
 10
19.08438386996777
 20
962.7075471446007
 30
0.0
 40
0.1841029970916579
100
AcDbArc
 50
202.0294702436422
 51
203.9147757463183
  0
ARC
  5
F19
330
1F
100
AcDbEntity
  8
SANINDUSA
100
AcDbCircle
 10
18.88676728453938
 20
962.6784931585044
 30
0.0
 40
0.01
100
AcDbArc
 50
90.0
 51
175.3295241784064
  0
ARC
  5
F1D
330
1F
100
AcDbEntity
  8
SANINDUSA
100
AcDbCircle
 10
18.90582078902663
 20
962.6991740508419
 30
0.0
 40
0.3932769452612854
100
AcDbArc
 50
332.6500503734938
 51
351.1240558008257
  0
ARC
  5
F21
330
1F
100
AcDbEntity
  8
SANINDUSA
100
AcDbCircle
 10
18.82388607758148
 20
962.6384931585043
 30
0.0
 40
0.5012499999999954
100
AcDbArc
 50
0.0
 51
4.670475821580481
  0
ARC
  5
F22
330
1F
100
AcDbEntity
  8
SANINDUSA
100
AcDbCircle
 10
19.31350487062357
 20
962.6784931585044
 30
0.0
 40
0.01
100
AcDbArc
 50
4.670475821593532
 51
90.0
  0
CIRCLE
  5
10B0
330
1F
100
AcDbEntity
  8
SANINDUSA
100
AcDbCircle
 10
18.53110569660703
 20
962.6100039210813
 30
0.0
 40
0.2225
  0
ENDSEC
  0
SECTION
  2
OBJECTS
  0
DICTIONARY
  5
C
330
0
100
AcDbDictionary
281
     1
  3
ACAD_COLOR
350
10B6
  3
ACAD_GROUP
350
D
  3
ACAD_LAYOUT
350
1A
  3
ACAD_MATERIAL
350
10B5
  3
ACAD_MLINESTYLE
350
17
  3
ACAD_PLOTSETTINGS
350
19
  3
ACAD_PLOTSTYLENAME
350
E
  3
ACAD_TABLESTYLE
350
10B7
  3
ACDBHEADERROUNDTRIPXREC
350
10C0
  3
AcDbVariableDictionary
350
3D
  3
ASE_INDEX_DICTIONARY
350
10B1
  0
DICTIONARY
  5
10B6
102
{ACAD_REACTORS
330
C
102
}
330
C
100
AcDbDictionary
281
     1
  0
DICTIONARY
  5
D
102
{ACAD_REACTORS
330
C
102
}
330
C
100
AcDbDictionary
281
     1
  0
DICTIONARY
  5
1A
102
{ACAD_REACTORS
330
C
102
}
330
C
100
AcDbDictionary
281
     1
  3
Layout1
350
1E
  3
Layout2
350
26
  3
Model
350
22
  0
DICTIONARY
  5
10B5
102
{ACAD_REACTORS
330
C
102
}
330
C
100
AcDbDictionary
281
     1
  0
DICTIONARY
  5
17
102
{ACAD_REACTORS
330
C
102
}
330
C
100
AcDbDictionary
281
     1
  3
Standard
350
18
  0
DICTIONARY
  5
19
102
{ACAD_REACTORS
330
C
102
}
330
C
100
AcDbDictionary
281
     1
  0
ACDBDICTIONARYWDFLT
  5
E
102
{ACAD_REACTORS
330
C
102
}
330
C
100
AcDbDictionary
281
     1
  3
Normal
350
F
100
AcDbDictionaryWithDefault
340
F
  0
DICTIONARY
  5
10B7
102
{ACAD_REACTORS
330
C
102
}
330
C
100
AcDbDictionary
281
     1
  3
Standard
350
10B8
  0
DICTIONARY
  5
10C0
102
{ACAD_REACTORS
330
C
102
}
330
C
100
AcDbDictionary
281
     1
  0
DICTIONARY
  5
3D
102
{ACAD_REACTORS
330
C
102
}
330
C
100
AcDbDictionary
281
     1
  3
CTABLESTYLE
350
10BD
  3
DIMASSOC
350
3F
  3
HIDETEXT
350
3E
  3
PROJECTNAME
350
10BE
  0
DICTIONARY
  5
10B1
102
{ACAD_REACTORS
330
C
102
}
330
C
100
AcDbDictionary
281
     1
  3
ASEBlockHierarchyIndexRecord
350
10B2
1001
DCO15
1040
1529386420.25
  0
LAYOUT
  5
1E
102
{ACAD_XDICTIONARY
360
10C1
102
}
102
{ACAD_REACTORS
330
1A
102
}
330
1A
100
AcDbPlotSettings
  1

  2
Ploter HP500
  4

  6

 40
0.0
 41
0.0
 42
0.0
 43
0.0
 44
0.0
 45
0.0
 46
0.0
 47
0.0
 48
0.0
 49
0.0
140
0.0
141
0.0
142
1.0
143
1.0
 70
   688
 72
     0
 73
     0
 74
     5
  7
monochrome.ctb
 75
    16
147
1.0
148
0.0
149
0.0
100
AcDbLayout
  1
Layout1
 70
     1
 71
     1
 10
0.0
 20
0.0
 11
420.0
 21
297.0
 12
0.0
 22
0.0
 32
0.0
 14
1.000000000000000E+20
 24
1.000000000000000E+20
 34
1.000000000000000E+20
 15
-1.000000000000000E+20
 25
-1.000000000000000E+20
 35
-1.000000000000000E+20
146
0.0
 13
0.0
 23
0.0
 33
0.0
 16
1.0
 26
0.0
 36
0.0
 17
0.0
 27
1.0
 37
0.0
 76
     0
330
1B
  0
LAYOUT
  5
26
102
{ACAD_XDICTIONARY
360
10C5
102
}
102
{ACAD_REACTORS
330
1A
102
}
330
1A
100
AcDbPlotSettings
  1

  2
Ploter HP500
  4

  6

 40
0.0
 41
0.0
 42
0.0
 43
0.0
 44
0.0
 45
0.0
 46
0.0
 47
0.0
 48
0.0
 49
0.0
140
0.0
141
0.0
142
1.0
143
1.0
 70
   688
 72
     0
 73
     0
 74
     5
  7
monochrome.ctb
 75
    16
147
1.0
148
0.0
149
0.0
100
AcDbLayout
  1
Layout2
 70
     1
 71
     2
 10
0.0
 20
0.0
 11
12.0
 21
9.0
 12
0.0
 22
0.0
 32
0.0
 14
0.0
 24
0.0
 34
0.0
 15
0.0
 25
0.0
 35
0.0
146
0.0
 13
0.0
 23
0.0
 33
0.0
 16
1.0
 26
0.0
 36
0.0
 17
0.0
 27
1.0
 37
0.0
 76
     0
330
23
  0
LAYOUT
  5
22
102
{ACAD_XDICTIONARY
360
10C3
102
}
102
{ACAD_REACTORS
330
1A
102
}
330
1A
100
AcDbPlotSettings
  1

  2
Ploter HP500
  4
User268
  6

 40
4.995333194732666
 41
16.97565841674804
 42
4.995330810546875
 43
16.97567749023437
 44
209.9733276367187
 45
296.9259948730469
 46
0.0
 47
0.0
 48
0.0
 49
0.0
140
0.0
141
0.0
142
1.0
143
1.0
 70
 11952
 72
     1
 73
     1
 74
     0
  7

 75
     0
147
1.0
148
-427.5957866592534
149
7.362384574453926
100
AcDbLayout
  1
Model
 70
     1
 71
     0
 10
0.0
 20
0.0
 11
12.0
 21
9.0
 12
0.0
 22
0.0
 32
0.0
 14
0.0
 24
0.0
 34
0.0
 15
0.0
 25
0.0
 35
0.0
146
0.0
 13
0.0
 23
0.0
 33
0.0
 16
1.0
 26
0.0
 36
0.0
 17
0.0
 27
1.0
 37
0.0
 76
     0
330
1F
  0
MLINESTYLE
  5
18
102
{ACAD_REACTORS
330
17
102
}
330
17
100
AcDbMlineStyle
  2
STANDARD
 70
     0
  3

 62
   256
 51
90.0
 52
90.0
 71
     2
 49
0.5
 62
   256
  6
BYLAYER
 49
-0.5
 62
   256
  6
BYLAYER
  0
ACDBPLACEHOLDER
  5
F
102
{ACAD_REACTORS
330
E
102
}
330
E
  0
TABLESTYLE
  5
10B8
102
{ACAD_REACTORS
330
10B7
102
}
330
10B7
100
AcDbTableStyle
  3
Standard
 70
     0
 71
     0
 40
1.5
 41
1.5
280
     0
281
     0
  7
Standard
140
4.5
170
     2
 62
     0
 63
     7
283
     0
274
    -2
284
     1
 64
     0
275
    -2
285
     1
 65
     0
276
    -2
286
     1
 66
     0
277
    -2
287
     1
 67
     0
278
    -2
288
     1
 68
     0
279
    -2
289
     1
 69
     0
  7
Standard
140
6.0
170
     5
 62
     0
 63
     7
283
     0
274
    -2
284
     1
 64
     0
275
    -2
285
     1
 65
     0
276
    -2
286
     1
 66
     0
277
    -2
287
     1
 67
     0
278
    -2
288
     1
 68
     0
279
    -2
289
     1
 69
     0
  7
Standard
140
4.5
170
     5
 62
     0
 63
     7
283
     0
274
    -2
284
     1
 64
     0
275
    -2
285
     1
 65
     0
276
    -2
286
     1
 66
     0
277
    -2
287
     1
 67
     0
278
    -2
288
     1
 68
     0
279
    -2
289
     1
 69
     0
  0
DICTIONARYVAR
  5
10BD
102
{ACAD_REACTORS
330
3D
102
}
330
3D
100
DictionaryVariables
280
     0
  1
STANDARD
  0
DICTIONARYVAR
  5
3F
102
{ACAD_REACTORS
330
3D
102
}
330
3D
100
DictionaryVariables
280
     0
  1
2
  0
DICTIONARYVAR
  5
3E
102
{ACAD_REACTORS
330
3D
102
}
330
3D
100
DictionaryVariables
280
     0
  1
1
  0
DICTIONARYVAR
  5
10BE
102
{ACAD_REACTORS
330
3D
102
}
330
3D
100
DictionaryVariables
280
     0
  1

  0
XRECORD
  5
10B2
102
{ACAD_REACTORS
330
10B1
102
}
330
10B1
100
AcDbXrecord
280
     1
  0
DICTIONARY
  5
10C1
330
1E
100
AcDbDictionary
280
     1
281
     1
  3
ACAD_XREC_ROUNDTRIP
360
10C2
  0
DICTIONARY
  5
10C5
330
26
100
AcDbDictionary
280
     1
281
     1
  3
ACAD_XREC_ROUNDTRIP
360
10C6
  0
DICTIONARY
  5
10C3
330
22
100
AcDbDictionary
280
     1
281
     1
  3
ACAD_XREC_ROUNDTRIP
360
10C4
  0
XRECORD
  5
10C2
102
{ACAD_REACTORS
330
10C1
102
}
330
10C1
100
AcDbXrecord
280
     1
102
SHADEPLOT
 70
     0
102
SHADEPLOTRESLEVEL
 70
     2
102
SHADEPLOTCUSTOMDPI
 70
   300
  0
XRECORD
  5
10C6
102
{ACAD_REACTORS
330
10C5
102
}
330
10C5
100
AcDbXrecord
280
     1
102
SHADEPLOT
 70
     0
102
SHADEPLOTRESLEVEL
 70
     2
102
SHADEPLOTCUSTOMDPI
 70
   300
  0
XRECORD
  5
10C4
102
{ACAD_REACTORS
330
10C3
102
}
330
10C3
100
AcDbXrecord
280
     1
102
SHADEPLOT
 70
     0
102
SHADEPLOTRESLEVEL
 70
     2
102
SHADEPLOTCUSTOMDPI
 70
   300
  0
ENDSEC
  0
EOF
